  0
SECTION
  2
HEADER
  9
$ACADVER
  1
AC1009
  9
$INSBASE
 10
0.0
 20
0.0
 30
0.0
  9
$EXTMIN
 10
0.0
 20
0.0
 30
0.0
  9
$EXTMAX
 10
0.0
 20
0.0
 30
0.0
  0
ENDSEC
  0
SECTION
  2
TABLES
  0
TABLE
  2
VPORT
 70
0
  0
ENDTAB
  0
TABLE
  2
LTYPE
 70
1
  0
LTYPE
  2
CONTINUOUS
 70
0
  3
Solid line
 72
65
 73
0
 40
0.0
  0
ENDTAB
  0
TABLE
  2
LAYER
 70
1
  0
LAYER
  2
0
 70
64
 62
7
  6
continuous
  0
ENDTAB
  0
TABLE
  2
STYLE
 70
1
  0
STYLE
  2
STANDARD
 70
0
 40
0
 41
1.0
 50
0.0
 71
0
 42
1
 3
ARIAL.TTF
 4

  0
ENDTAB
  0
TABLE
  2
VIEW
 70
0
  0
ENDTAB
  0
ENDSEC
  0
SECTION
  2
BLOCKS
  0
BLOCK
  8
0
  2
FILLET001
 70
0
 10
0.0
 20
0.0
 30
0.0
  3
FILLET001
  0
LINE
  8
0
 62
0
 10
0.0
 20
37.11
 30
0.0
 11
0.0
 21
1.2
 31
0.0
  0
ARC
  8
0
 62
0
 10
0.7
 20
37.11
 30
0.0
 40
0.7
 50
90.0
 51
-180.0
  0
ARC
  8
0
 62
0
 10
1.2
 20
1.2
 30
0.0
 40
1.2
 50
180.0
 51
-90.0
  0
LINE
  8
0
 62
0
 10
0.7
 20
37.81
 30
0.0
 11
0.72
 21
37.81
 31
0.0
  0
LINE
  8
0
 62
0
 10
1.2
 20
0.0
 30
0.0
 11
35.47
 21
0.0
 31
0.0
  0
ARC
  8
0
 62
0
 10
0.72
 20
39.01
 30
0.0
 40
1.2
 50
-90.0
 51
-0.0
  0
ARC
  8
0
 62
0
 10
35.47
 20
1.2
 30
0.0
 40
1.2
 50
-90.0
 51
0.0
  0
LINE
  8
0
 62
0
 10
1.92
 20
39.01
 30
0.0
 11
1.92
 21
57.6
 31
0.0
  0
LINE
  8
0
 62
0
 10
36.67
 20
1.72
 30
0.0
 11
36.67
 21
1.2
 31
0.0
  0
ARC
  8
0
 62
0
 10
0.72
 20
57.6
 30
0.0
 40
1.2
 50
-0.0
 51
90.0
  0
ARC
  8
0
 62
0
 10
37.87
 20
1.72
 30
0.0
 40
1.2
 50
90.0
 51
180.0
  0
LINE
  8
0
 62
0
 10
0.72
 20
58.8
 30
0.0
 11
0.7
 21
58.8
 31
0.0
  0
LINE
  8
0
 62
0
 10
55.19
 20
2.92
 30
0.0
 11
37.87
 21
2.92
 31
0.0
  0
ARC
  8
0
 62
0
 10
0.7
 20
59.5
 30
0.0
 40
0.7
 50
-180.0
 51
-90.0
  0
ARC
  8
0
 62
0
 10
55.19
 20
1.72
 30
0.0
 40
1.2
 50
0.0
 51
90.0
  0
LINE
  8
0
 62
0
 10
0.0
 20
94.69
 30
0.0
 11
0.0
 21
59.5
 31
0.0
  0
LINE
  8
0
 62
0
 10
56.39
 20
1.2
 30
0.0
 11
56.39
 21
1.72
 31
0.0
  0
ARC
  8
0
 62
0
 10
1.2
 20
94.69
 30
0.0
 40
1.2
 50
90.0
 51
-180.0
  0
ARC
  8
0
 62
0
 10
57.59
 20
1.2
 30
0.0
 40
1.2
 50
180.0
 51
-90.0
  0
LINE
  8
0
 62
0
 10
34.87
 20
95.89
 30
0.0
 11
1.2
 21
95.89
 31
0.0
  0
LINE
  8
0
 62
0
 10
57.59
 20
0.0
 30
0.0
 11
88.97
 21
0.0
 31
0.0
  0
ARC
  8
0
 62
0
 10
34.87
 20
94.69
 30
0.0
 40
1.2
 50
-0.0
 51
90.0
  0
ARC
  8
0
 62
0
 10
88.97
 20
1.2
 30
0.0
 40
1.2
 50
-90.0
 51
0.0
  0
LINE
  8
0
 62
0
 10
36.07
 20
94.16
 30
0.0
 11
36.07
 21
94.69
 31
0.0
  0
LINE
  8
0
 62
0
 10
90.17
 20
1.2
 30
0.0
 11
90.17
 21
71.7
 31
0.0
  0
ARC
  8
0
 62
0
 10
37.27
 20
94.16
 30
0.0
 40
1.2
 50
-180.0
 51
-90.0
  0
ARC
  8
0
 62
0
 10
88.97
 20
71.7
 30
0.0
 40
1.2
 50
-0.0
 51
90.0
  0
LINE
  8
0
 62
0
 10
55.19
 20
92.96
 30
0.0
 11
37.27
 21
92.96
 31
0.0
  0
LINE
  8
0
 62
0
 10
86.8
 20
72.9
 30
0.0
 11
88.97
 21
72.9
 31
0.0
  0
ARC
  8
0
 62
0
 10
55.19
 20
94.16
 30
0.0
 40
1.2
 50
-90.0
 51
-0.0
  0
ARC
  8
0
 62
0
 10
86.8
 20
74.1
 30
0.0
 40
1.2
 50
-180.0
 51
-90.0
  0
LINE
  8
0
 62
0
 10
56.39
 20
94.69
 30
0.0
 11
56.39
 21
94.16
 31
0.0
  0
LINE
  8
0
 62
0
 10
85.6
 20
94.69
 30
0.0
 11
85.6
 21
74.1
 31
0.0
  0
ARC
  8
0
 62
0
 10
57.59
 20
94.69
 30
0.0
 40
1.2
 50
90.0
 51
-180.0
  0
ARC
  8
0
 62
0
 10
84.4
 20
94.69
 30
0.0
 40
1.2
 50
-0.0
 51
90.0
  0
LINE
  8
0
 62
0
 10
84.4
 20
95.89
 30
0.0
 11
57.59
 21
95.89
 31
0.0
  0
CIRCLE
  8
0
 62
0
 10
82.55
 20
90.81
 30
0.0
 40
1.59
  0
CIRCLE
  8
0
 62
0
 10
8.89
 20
90.81
 30
0.0
 40
1.59
  0
CIRCLE
  8
0
 62
0
 10
85.09
 20
5.08
 30
0.0
 40
1.59
  0
CIRCLE
  8
0
 62
0
 10
5.08
 20
5.08
 30
0.0
 40
1.59
  0
ENDBLK
  0
ENDSEC
  0
SECTION
  2
ENTITIES
  0
INSERT
  2
FILLET001
  8
0
 62
0
 10
0.0
 20
0.0
 30
0.0
  0
ENDSEC
  0
EOF
