  0
SECTION
  2
HEADER
  9
$ACADVER
  1
AC1009
  9
$INSBASE
 10
0.0
 20
0.0
 30
0.0
  9
$EXTMIN
 10
0.0
 20
0.0
 30
0.0
  9
$EXTMAX
 10
0.0
 20
0.0
 30
0.0
  0
ENDSEC
  0
SECTION
  2
TABLES
  0
TABLE
  2
VPORT
 70
0
  0
ENDTAB
  0
TABLE
  2
LTYPE
 70
1
  0
LTYPE
  2
CONTINUOUS
 70
0
  3
Solid line
 72
65
 73
0
 40
0.0
  0
ENDTAB
  0
TABLE
  2
LAYER
 70
1
  0
LAYER
  2
0
 70
64
 62
7
  6
continuous
  0
ENDTAB
  0
TABLE
  2
STYLE
 70
1
  0
STYLE
  2
STANDARD
 70
0
 40
0
 41
1.0
 50
0.0
 71
0
 42
1
 3
ARIAL.TTF
 4

  0
ENDTAB
  0
TABLE
  2
VIEW
 70
0
  0
ENDTAB
  0
ENDSEC
  0
SECTION
  2
BLOCKS
  0
BLOCK
  8
0
  2
SHAPE2DVIEW
 70
0
 10
0.0
 20
0.0
 30
0.0
  3
SHAPE2DVIEW
  0
LINE
  8
0
 62
0
 10
18.150000000000002
 20
5.10702591327572e-15
 30
0.0
 11
18.150000000000002
 21
2.7585812471926587
 31
0.0
  0
LINE
  8
0
 62
0
 10
26.5
 20
1.4210854715202004e-14
 30
0.0
 11
18.150000000000002
 21
1.4210854715202004e-14
 31
0.0
  0
LINE
  8
0
 62
0
 10
26.5
 20
7.837500000000006
 30
0.0
 11
26.5
 21
0.0
 31
0.0
  0
LINE
  8
0
 62
0
 10
26.5
 20
7.8375
 30
0.0
 11
29.5
 21
7.8375
 31
0.0
  0
LINE
  8
0
 62
0
 10
29.5
 20
7.8375
 30
0.0
 11
29.5
 21
18.0375
 31
0.0
  0
LINE
  8
0
 62
0
 10
26.5
 20
33.712500000000006
 30
0.0
 11
26.5
 21
18.037499999999994
 31
0.0
  0
LINE
  8
0
 62
0
 10
26.5
 20
18.0375
 30
0.0
 11
29.5
 21
18.0375
 31
0.0
  0
LINE
  8
0
 62
0
 10
26.5
 20
33.7125
 30
0.0
 11
29.5
 21
33.7125
 31
0.0
  0
LINE
  8
0
 62
0
 10
29.5
 20
33.7125
 30
0.0
 11
29.5
 21
43.912499999999994
 31
0.0
  0
LINE
  8
0
 62
0
 10
26.5
 20
59.587500000000006
 30
0.0
 11
26.5
 21
43.912499999999994
 31
0.0
  0
LINE
  8
0
 62
0
 10
26.5
 20
43.9125
 30
0.0
 11
29.5
 21
43.9125
 31
0.0
  0
LINE
  8
0
 62
0
 10
26.5
 20
59.5875
 30
0.0
 11
29.5
 21
59.5875
 31
0.0
  0
LINE
  8
0
 62
0
 10
29.5
 20
59.5875
 30
0.0
 11
29.5
 21
69.7875
 31
0.0
  0
LINE
  8
0
 62
0
 10
26.5
 20
85.4625
 30
0.0
 11
26.5
 21
69.7875
 31
0.0
  0
LINE
  8
0
 62
0
 10
26.5
 20
69.7875
 30
0.0
 11
29.5
 21
69.7875
 31
0.0
  0
LINE
  8
0
 62
0
 10
26.5
 20
85.4625
 30
0.0
 11
29.5
 21
85.4625
 31
0.0
  0
LINE
  8
0
 62
0
 10
29.5
 20
85.4625
 30
0.0
 11
29.5
 21
95.66250000000001
 31
0.0
  0
LINE
  8
0
 62
0
 10
26.5
 20
111.3375
 30
0.0
 11
26.5
 21
95.6625
 31
0.0
  0
LINE
  8
0
 62
0
 10
26.5
 20
95.6625
 30
0.0
 11
29.5
 21
95.6625
 31
0.0
  0
LINE
  8
0
 62
0
 10
26.5
 20
111.3375
 30
0.0
 11
29.5
 21
111.3375
 31
0.0
  0
LINE
  8
0
 62
0
 10
29.5
 20
111.3375
 30
0.0
 11
29.5
 21
121.53750000000001
 31
0.0
  0
LINE
  8
0
 62
0
 10
26.5
 20
137.2125
 30
0.0
 11
26.5
 21
121.5375
 31
0.0
  0
LINE
  8
0
 62
0
 10
26.5
 20
121.5375
 30
0.0
 11
29.5
 21
121.5375
 31
0.0
  0
LINE
  8
0
 62
0
 10
26.5
 20
137.2125
 30
0.0
 11
29.5
 21
137.2125
 31
0.0
  0
LINE
  8
0
 62
0
 10
29.5
 20
137.2125
 30
0.0
 11
29.5
 21
147.4125
 31
0.0
  0
LINE
  8
0
 62
0
 10
26.5
 20
163.0875
 30
0.0
 11
26.5
 21
147.4125
 31
0.0
  0
LINE
  8
0
 62
0
 10
26.5
 20
147.4125
 30
0.0
 11
29.5
 21
147.4125
 31
0.0
  0
LINE
  8
0
 62
0
 10
26.5
 20
163.0875
 30
0.0
 11
29.5
 21
163.0875
 31
0.0
  0
LINE
  8
0
 62
0
 10
29.5
 20
163.0875
 30
0.0
 11
29.5
 21
173.2875
 31
0.0
  0
LINE
  8
0
 62
0
 10
26.5
 20
188.9625
 30
0.0
 11
26.5
 21
173.2875
 31
0.0
  0
LINE
  8
0
 62
0
 10
26.5
 20
173.2875
 30
0.0
 11
29.5
 21
173.2875
 31
0.0
  0
LINE
  8
0
 62
0
 10
26.5
 20
188.9625
 30
0.0
 11
29.5
 21
188.9625
 31
0.0
  0
LINE
  8
0
 62
0
 10
29.5
 20
188.9625
 30
0.0
 11
29.5
 21
199.1625
 31
0.0
  0
LINE
  8
0
 62
0
 10
26.5
 20
207.0
 30
0.0
 11
26.5
 21
199.1625
 31
0.0
  0
LINE
  8
0
 62
0
 10
18.35
 20
207.0
 30
0.0
 11
26.5
 21
207.0
 31
0.0
  0
LINE
  8
0
 62
0
 10
26.5
 20
199.1625
 30
0.0
 11
29.5
 21
199.1625
 31
0.0
  0
LINE
  8
0
 62
0
 10
18.35
 20
207.0
 30
0.0
 11
18.35
 21
210.0
 31
0.0
  0
LINE
  8
0
 62
0
 10
18.35
 20
210.0
 30
0.0
 11
8.150000000000002
 21
210.0
 31
0.0
  0
LINE
  8
0
 62
0
 10
0.0
 20
1.4210854715202004e-14
 30
0.0
 11
0.0
 21
5.000000000000014
 31
0.0
  0
LINE
  8
0
 62
0
 10
18.5
 20
23.49999999980082
 30
0.0
 11
0.0
 21
5.0
 31
0.0
  0
LINE
  8
0
 62
0
 10
8.350000000000001
 20
1.4210854715202004e-14
 30
0.0
 11
0.0
 21
1.4210854715202004e-14
 31
0.0
  0
LINE
  8
0
 62
0
 10
8.350000000000001
 20
5.10702591327572e-15
 30
0.0
 11
8.350000000000001
 21
2.7585812471926587
 31
0.0
  0
LINE
  8
0
 62
0
 10
18.5
 20
183.50000000019918
 30
0.0
 11
18.5
 21
23.49999999980082
 31
0.0
  0
LINE
  8
0
 62
0
 10
0.0
 20
207.0
 30
0.0
 11
8.15
 21
207.0
 31
0.0
  0
LINE
  8
0
 62
0
 10
0.0
 20
202.0
 30
0.0
 11
0.0
 21
207.0
 31
0.0
  0
LINE
  8
0
 62
0
 10
0.0
 20
202.0
 30
0.0
 11
18.5
 21
183.50000000019918
 31
0.0
  0
LINE
  8
0
 62
0
 10
8.15
 20
207.0
 30
0.0
 11
8.15
 21
210.0
 31
0.0
  0
ARC
  8
0
 62
0
 10
8.456666666666667
 20
2.9433333333333325
 30
0.0
 40
0.21333333333333332
 50
90.0
 51
-120.00000000000192
  0
ARC
  8
0
 62
0
 10
8.456666666666667
 20
2.9433333333333325
 30
0.0
 40
0.21333333333333332
 50
29.999999999998476
 51
90.0
  0
LINE
  8
0
 62
0
 10
8.641418752807352
 20
3.049999999999999
 30
0.0
 11
17.858581247192653
 21
3.049999999999999
 31
0.0
  0
ARC
  8
0
 62
0
 10
18.043333333333337
 20
2.9433333333333325
 30
0.0
 40
0.21333333333333332
 50
90.0
 51
150.00000000000153
  0
ARC
  8
0
 62
0
 10
18.043333333333337
 20
2.9433333333333325
 30
0.0
 40
0.21333333333333332
 50
-59.99999999999809
 51
90.0
  0
ENDBLK
  0
BLOCK
  8
0
  2
SHAPE2DVIEW001
 70
0
 10
0.0
 20
0.0
 30
0.0
  3
SHAPE2DVIEW001
  0
LINE
  8
0
 62
0
 10
69.0
 20
3.0
 30
0.0
 11
69.0
 21
90.6
 31
0.0
  0
LINE
  8
0
 62
0
 10
60.85
 20
3.0
 30
0.0
 11
69.0
 21
3.0
 31
0.0
  0
LINE
  8
0
 62
0
 10
69.0
 20
90.6
 30
0.0
 11
60.85
 21
90.6
 31
0.0
  0
LINE
  8
0
 62
0
 10
60.85
 20
2.9999999999999987
 30
0.0
 11
60.85
 21
-1.3322676295501878e-15
 31
0.0
  0
LINE
  8
0
 62
0
 10
60.85
 20
90.6
 30
0.0
 11
60.85
 21
93.6
 31
0.0
  0
LINE
  8
0
 62
0
 10
60.85
 20
-1.3322676295501878e-15
 30
0.0
 11
50.650000000000006
 21
9.325873406851313e-16
 31
0.0
  0
LINE
  8
0
 62
0
 10
50.65
 20
93.6
 30
0.0
 11
60.849999999999994
 21
93.6
 31
0.0
  0
LINE
  8
0
 62
0
 10
50.65
 20
90.6
 30
0.0
 11
50.65
 21
93.6
 31
0.0
  0
LINE
  8
0
 62
0
 10
50.65
 20
90.6
 30
0.0
 11
42.5
 21
90.6
 31
0.0
  0
LINE
  8
0
 62
0
 10
42.5
 20
90.6
 30
0.0
 11
42.5
 21
84.75
 31
0.0
  0
LINE
  8
0
 62
0
 10
42.5
 20
84.74999999999999
 30
0.0
 11
39.5
 21
84.74999999999999
 31
0.0
  0
LINE
  8
0
 62
0
 10
39.5
 20
74.55
 30
0.0
 11
39.5
 21
84.75
 31
0.0
  0
LINE
  8
0
 62
0
 10
42.5
 20
74.55
 30
0.0
 11
39.5
 21
74.55
 31
0.0
  0
LINE
  8
0
 62
0
 10
42.5
 20
74.54999999999998
 30
0.0
 11
42.5
 21
62.849999999999994
 31
0.0
  0
LINE
  8
0
 62
0
 10
42.5
 20
62.85
 30
0.0
 11
39.5
 21
62.85
 31
0.0
  0
LINE
  8
0
 62
0
 10
39.5
 20
52.65
 30
0.0
 11
39.5
 21
62.849999999999994
 31
0.0
  0
LINE
  8
0
 62
0
 10
42.5
 20
52.65
 30
0.0
 11
39.5
 21
52.65
 31
0.0
  0
LINE
  8
0
 62
0
 10
42.5
 20
52.65
 30
0.0
 11
42.5
 21
40.949999999999996
 31
0.0
  0
LINE
  8
0
 62
0
 10
42.5
 20
40.949999999999996
 30
0.0
 11
39.5
 21
40.949999999999996
 31
0.0
  0
LINE
  8
0
 62
0
 10
39.5
 20
30.749999999999993
 30
0.0
 11
39.5
 21
40.94999999999999
 31
0.0
  0
LINE
  8
0
 62
0
 10
42.5
 20
30.749999999999993
 30
0.0
 11
39.5
 21
30.749999999999993
 31
0.0
  0
LINE
  8
0
 62
0
 10
42.5
 20
30.75
 30
0.0
 11
42.5
 21
19.05000000000001
 31
0.0
  0
LINE
  8
0
 62
0
 10
42.5
 20
19.050000000000004
 30
0.0
 11
39.5
 21
19.050000000000004
 31
0.0
  0
LINE
  8
0
 62
0
 10
39.5
 20
8.850000000000003
 30
0.0
 11
39.5
 21
19.050000000000004
 31
0.0
  0
LINE
  8
0
 62
0
 10
42.5
 20
8.850000000000003
 30
0.0
 11
39.5
 21
8.850000000000003
 31
0.0
  0
LINE
  8
0
 62
0
 10
42.5
 20
8.849999999999994
 30
0.0
 11
42.5
 21
3.0
 31
0.0
  0
LINE
  8
0
 62
0
 10
42.5
 20
3.0
 30
0.0
 11
50.65
 21
3.0
 31
0.0
  0
LINE
  8
0
 62
0
 10
50.65
 20
3.0000000000000013
 30
0.0
 11
50.65
 21
1.3322676295501878e-15
 31
0.0
  0
ENDBLK
  0
BLOCK
  8
0
  2
SHAPE2DVIEW003
 70
0
 10
0.0
 20
0.0
 30
0.0
  3
SHAPE2DVIEW003
  0
LINE
  8
0
 62
0
 10
220.0
 20
220.0
 30
0.0
 11
220.0
 21
427.0
 31
0.0
  0
LINE
  8
0
 62
0
 10
228.35
 20
220.0
 30
0.0
 11
220.0
 21
220.0
 31
0.0
  0
LINE
  8
0
 62
0
 10
220.0
 20
427.0
 30
0.0
 11
228.15
 21
427.0
 31
0.0
  0
LINE
  8
0
 62
0
 10
228.35
 20
220.0
 30
0.0
 11
228.35
 21
222.75858124719267
 31
0.0
  0
LINE
  8
0
 62
0
 10
228.15
 20
427.0
 30
0.0
 11
228.15
 21
430.0
 31
0.0
  0
LINE
  8
0
 62
0
 10
238.35
 20
430.0
 30
0.0
 11
228.15
 21
430.0
 31
0.0
  0
LINE
  8
0
 62
0
 10
238.35
 20
427.0
 30
0.0
 11
238.35
 21
430.0
 31
0.0
  0
LINE
  8
0
 62
0
 10
238.15
 20
220.0
 30
0.0
 11
238.15
 21
222.75858124719267
 31
0.0
  0
LINE
  8
0
 62
0
 10
246.5
 20
220.0
 30
0.0
 11
238.15
 21
220.0
 31
0.0
  0
LINE
  8
0
 62
0
 10
246.5
 20
227.8375
 30
0.0
 11
246.5
 21
220.0
 31
0.0
  0
LINE
  8
0
 62
0
 10
246.5
 20
227.8375
 30
0.0
 11
249.5
 21
227.8375
 31
0.0
  0
LINE
  8
0
 62
0
 10
249.5
 20
227.8375
 30
0.0
 11
249.5
 21
238.0375
 31
0.0
  0
LINE
  8
0
 62
0
 10
246.5
 20
253.7125
 30
0.0
 11
246.5
 21
238.0375
 31
0.0
  0
LINE
  8
0
 62
0
 10
246.5
 20
238.0375
 30
0.0
 11
249.5
 21
238.0375
 31
0.0
  0
LINE
  8
0
 62
0
 10
246.5
 20
253.7125
 30
0.0
 11
249.5
 21
253.7125
 31
0.0
  0
LINE
  8
0
 62
0
 10
249.5
 20
253.7125
 30
0.0
 11
249.5
 21
263.9125
 31
0.0
  0
LINE
  8
0
 62
0
 10
246.5
 20
279.5875
 30
0.0
 11
246.5
 21
263.9125
 31
0.0
  0
LINE
  8
0
 62
0
 10
246.5
 20
263.9125
 30
0.0
 11
249.5
 21
263.9125
 31
0.0
  0
LINE
  8
0
 62
0
 10
246.5
 20
279.5875
 30
0.0
 11
249.5
 21
279.5875
 31
0.0
  0
LINE
  8
0
 62
0
 10
249.5
 20
279.5875
 30
0.0
 11
249.5
 21
289.78749999999997
 31
0.0
  0
LINE
  8
0
 62
0
 10
246.5
 20
305.4625
 30
0.0
 11
246.5
 21
289.7875
 31
0.0
  0
LINE
  8
0
 62
0
 10
246.5
 20
289.7875
 30
0.0
 11
249.5
 21
289.7875
 31
0.0
  0
LINE
  8
0
 62
0
 10
246.5
 20
305.4625
 30
0.0
 11
249.5
 21
305.4625
 31
0.0
  0
LINE
  8
0
 62
0
 10
249.5
 20
305.4625
 30
0.0
 11
249.5
 21
315.66249999999997
 31
0.0
  0
LINE
  8
0
 62
0
 10
246.5
 20
331.3375
 30
0.0
 11
246.5
 21
315.6625
 31
0.0
  0
LINE
  8
0
 62
0
 10
246.5
 20
315.6625
 30
0.0
 11
249.5
 21
315.6625
 31
0.0
  0
LINE
  8
0
 62
0
 10
246.5
 20
331.3375
 30
0.0
 11
249.5
 21
331.3375
 31
0.0
  0
LINE
  8
0
 62
0
 10
249.5
 20
331.3375
 30
0.0
 11
249.5
 21
341.53749999999997
 31
0.0
  0
LINE
  8
0
 62
0
 10
246.5
 20
357.2125
 30
0.0
 11
246.5
 21
341.5375
 31
0.0
  0
LINE
  8
0
 62
0
 10
246.5
 20
341.5375
 30
0.0
 11
249.5
 21
341.5375
 31
0.0
  0
LINE
  8
0
 62
0
 10
246.5
 20
357.2125
 30
0.0
 11
249.5
 21
357.2125
 31
0.0
  0
LINE
  8
0
 62
0
 10
249.5
 20
357.2125
 30
0.0
 11
249.5
 21
367.41249999999997
 31
0.0
  0
LINE
  8
0
 62
0
 10
246.5
 20
383.0875
 30
0.0
 11
246.5
 21
367.4125
 31
0.0
  0
LINE
  8
0
 62
0
 10
246.5
 20
367.4125
 30
0.0
 11
249.5
 21
367.4125
 31
0.0
  0
LINE
  8
0
 62
0
 10
246.5
 20
383.0875
 30
0.0
 11
249.5
 21
383.0875
 31
0.0
  0
LINE
  8
0
 62
0
 10
249.5
 20
383.0875
 30
0.0
 11
249.5
 21
393.28749999999997
 31
0.0
  0
LINE
  8
0
 62
0
 10
246.5
 20
408.9625
 30
0.0
 11
246.5
 21
393.2875
 31
0.0
  0
LINE
  8
0
 62
0
 10
246.5
 20
393.2875
 30
0.0
 11
249.5
 21
393.2875
 31
0.0
  0
LINE
  8
0
 62
0
 10
246.5
 20
408.9625
 30
0.0
 11
249.5
 21
408.9625
 31
0.0
  0
LINE
  8
0
 62
0
 10
249.5
 20
408.9625
 30
0.0
 11
249.5
 21
419.16249999999997
 31
0.0
  0
LINE
  8
0
 62
0
 10
246.5
 20
427.0
 30
0.0
 11
246.5
 21
419.1625
 31
0.0
  0
LINE
  8
0
 62
0
 10
238.35
 20
427.0
 30
0.0
 11
246.5
 21
427.0
 31
0.0
  0
LINE
  8
0
 62
0
 10
246.5
 20
419.1625
 30
0.0
 11
249.5
 21
419.1625
 31
0.0
  0
ARC
  8
0
 62
0
 10
228.45666666666668
 20
222.94333333333333
 30
0.0
 40
0.21333333333333332
 50
90.0
 51
-120.00000000000249
  0
ARC
  8
0
 62
0
 10
228.45666666666668
 20
222.94333333333333
 30
0.0
 40
0.21333333333333332
 50
29.999999999995882
 51
90.0
  0
LINE
  8
0
 62
0
 10
237.85858124719266
 20
223.05
 30
0.0
 11
228.64141875280737
 21
223.05
 31
0.0
  0
ARC
  8
0
 62
0
 10
238.04333333333332
 20
222.94333333333333
 30
0.0
 40
0.21333333333333332
 50
90.0
 51
150.00000000000412
  0
ARC
  8
0
 62
0
 10
238.04333333333332
 20
222.94333333333333
 30
0.0
 40
0.21333333333333332
 50
-59.99999999999751
 51
90.0
  0
ENDBLK
  0
BLOCK
  8
0
  2
SHAPE2DVIEW002
 70
0
 10
0.0
 20
0.0
 30
0.0
  3
SHAPE2DVIEW002
  0
LINE
  8
0
 62
0
 10
0.0
 20
220.0
 30
0.0
 11
207.0
 21
220.0
 31
0.0
  0
LINE
  8
0
 62
0
 10
0.0
 20
232.25
 30
0.0
 11
0.0
 21
220.0
 31
0.0
  0
LINE
  8
0
 62
0
 10
207.0
 20
220.0
 30
0.0
 11
207.0
 21
227.4
 31
0.0
  0
LINE
  8
0
 62
0
 10
5.773159728050814e-15
 20
232.25
 30
0.0
 11
2.7585812471926583
 21
232.25
 31
0.0
  0
LINE
  8
0
 62
0
 10
207.0
 20
227.4
 30
0.0
 11
210.0
 21
227.4
 31
0.0
  0
LINE
  8
0
 62
0
 10
210.0
 20
237.6
 30
0.0
 11
210.0
 21
227.4
 31
0.0
  0
LINE
  8
0
 62
0
 10
207.0
 20
237.6
 30
0.0
 11
210.0
 21
237.6
 31
0.0
  0
LINE
  8
0
 62
0
 10
5.773159728050814e-15
 20
307.75
 30
0.0
 11
2.758581247192653
 21
307.75
 31
0.0
  0
LINE
  8
0
 62
0
 10
0.0
 20
320.0
 30
0.0
 11
0.0
 21
307.75
 31
0.0
  0
LINE
  8
0
 62
0
 10
207.0
 20
320.0
 30
0.0
 11
0.0
 21
320.0
 31
0.0
  0
LINE
  8
0
 62
0
 10
207.0
 20
312.6
 30
0.0
 11
207.0
 21
320.0
 31
0.0
  0
LINE
  8
0
 62
0
 10
207.0
 20
312.6
 30
0.0
 11
210.0
 21
312.6
 31
0.0
  0
LINE
  8
0
 62
0
 10
210.0
 20
312.6
 30
0.0
 11
210.0
 21
302.40000000000003
 31
0.0
  0
LINE
  8
0
 62
0
 10
207.0
 20
287.6
 30
0.0
 11
207.0
 21
302.4
 31
0.0
  0
LINE
  8
0
 62
0
 10
207.0
 20
302.4
 30
0.0
 11
210.0
 21
302.4
 31
0.0
  0
LINE
  8
0
 62
0
 10
207.0
 20
287.6
 30
0.0
 11
210.0
 21
287.6
 31
0.0
  0
LINE
  8
0
 62
0
 10
210.0
 20
287.6
 30
0.0
 11
210.0
 21
277.40000000000003
 31
0.0
  0
LINE
  8
0
 62
0
 10
207.0
 20
262.6
 30
0.0
 11
207.0
 21
277.4
 31
0.0
  0
LINE
  8
0
 62
0
 10
207.0
 20
277.4
 30
0.0
 11
210.0
 21
277.4
 31
0.0
  0
LINE
  8
0
 62
0
 10
207.0
 20
262.6
 30
0.0
 11
210.0
 21
262.6
 31
0.0
  0
LINE
  8
0
 62
0
 10
210.0
 20
262.6
 30
0.0
 11
210.0
 21
252.40000000000003
 31
0.0
  0
LINE
  8
0
 62
0
 10
207.0
 20
237.6
 30
0.0
 11
207.0
 21
252.4
 31
0.0
  0
LINE
  8
0
 62
0
 10
207.0
 20
252.4
 30
0.0
 11
210.0
 21
252.4
 31
0.0
  0
ARC
  8
0
 62
0
 10
2.9433333333333334
 20
307.6433333333333
 30
0.0
 40
0.21333333333333332
 50
-0.0
 51
149.99999999999596
  0
ARC
  8
0
 62
0
 10
2.9433333333333334
 20
307.6433333333333
 30
0.0
 40
0.21333333333333332
 50
-60.00000000000237
 51
-0.0
  0
LINE
  8
0
 62
0
 10
3.05
 20
298.2414187528074
 30
0.0
 11
3.05
 21
307.4585812471927
 31
0.0
  0
ARC
  8
0
 62
0
 10
2.9433333333333334
 20
298.0566666666667
 30
0.0
 40
0.21333333333333332
 50
-0.0
 51
60.00000000000237
  0
ARC
  8
0
 62
0
 10
2.9433333333333334
 20
298.0566666666667
 30
0.0
 40
0.21333333333333332
 50
-149.9999999999956
 51
-0.0
  0
LINE
  8
0
 62
0
 10
5.773159728050814e-15
 20
297.95000000000005
 30
0.0
 11
2.7585812471926583
 21
297.95000000000005
 31
0.0
  0
LINE
  8
0
 62
0
 10
0.0
 20
297.95
 30
0.0
 11
0.0
 21
285.85
 31
0.0
  0
LINE
  8
0
 62
0
 10
5.773159728050814e-15
 20
285.84999999999997
 30
0.0
 11
2.758581247192659
 21
285.84999999999997
 31
0.0
  0
ARC
  8
0
 62
0
 10
2.9433333333333334
 20
285.74333333333334
 30
0.0
 40
0.21333333333333332
 50
-0.0
 51
149.99999999999557
  0
ARC
  8
0
 62
0
 10
2.9433333333333334
 20
285.74333333333334
 30
0.0
 40
0.21333333333333332
 50
-60.00000000000237
 51
-0.0
  0
LINE
  8
0
 62
0
 10
3.05
 20
276.3414187528074
 30
0.0
 11
3.05
 21
285.55858124719265
 31
0.0
  0
ARC
  8
0
 62
0
 10
2.9433333333333334
 20
276.15666666666664
 30
0.0
 40
0.21333333333333332
 50
-0.0
 51
60.00000000000248
  0
ARC
  8
0
 62
0
 10
2.9433333333333334
 20
276.15666666666664
 30
0.0
 40
0.21333333333333332
 50
-149.9999999999956
 51
-0.0
  0
LINE
  8
0
 62
0
 10
5.773159728050814e-15
 20
276.05
 30
0.0
 11
2.758581247192659
 21
276.05
 31
0.0
  0
LINE
  8
0
 62
0
 10
0.0
 20
276.05
 30
0.0
 11
0.0
 21
263.95
 31
0.0
  0
LINE
  8
0
 62
0
 10
5.773159728050814e-15
 20
263.95
 30
0.0
 11
2.758581247192659
 21
263.95
 31
0.0
  0
ARC
  8
0
 62
0
 10
2.9433333333333334
 20
263.84333333333336
 30
0.0
 40
0.21333333333333332
 50
-0.0
 51
149.9999999999956
  0
ARC
  8
0
 62
0
 10
2.9433333333333334
 20
263.84333333333336
 30
0.0
 40
0.21333333333333332
 50
-60.00000000000248
 51
-0.0
  0
LINE
  8
0
 62
0
 10
3.05
 20
254.44141875280735
 30
0.0
 11
3.05
 21
263.65858124719267
 31
0.0
  0
ARC
  8
0
 62
0
 10
2.9433333333333334
 20
254.25666666666666
 30
0.0
 40
0.21333333333333332
 50
-0.0
 51
60.00000000000237
  0
ARC
  8
0
 62
0
 10
2.9433333333333334
 20
254.25666666666666
 30
0.0
 40
0.21333333333333332
 50
-149.99999999999557
 51
-0.0
  0
LINE
  8
0
 62
0
 10
5.773159728050814e-15
 20
254.15
 30
0.0
 11
2.758581247192659
 21
254.15
 31
0.0
  0
LINE
  8
0
 62
0
 10
0.0
 20
254.15
 30
0.0
 11
0.0
 21
242.05
 31
0.0
  0
LINE
  8
0
 62
0
 10
5.773159728050814e-15
 20
242.05
 30
0.0
 11
2.7585812471926565
 21
242.05
 31
0.0
  0
ARC
  8
0
 62
0
 10
2.9433333333333334
 20
241.94333333333333
 30
0.0
 40
0.21333333333333332
 50
-0.0
 51
149.99999999999585
  0
ARC
  8
0
 62
0
 10
2.9433333333333334
 20
241.94333333333333
 30
0.0
 40
0.21333333333333332
 50
-60.00000000000237
 51
-0.0
  0
LINE
  8
0
 62
0
 10
3.05
 20
232.54141875280735
 30
0.0
 11
3.05
 21
241.75858124719264
 31
0.0
  0
ARC
  8
0
 62
0
 10
2.9433333333333334
 20
232.35666666666668
 30
0.0
 40
0.21333333333333332
 50
-0.0
 51
60.00000000000237
  0
ARC
  8
0
 62
0
 10
2.9433333333333334
 20
232.35666666666668
 30
0.0
 40
0.21333333333333332
 50
-149.99999999999537
 51
-0.0
  0
LINE
  8
0
 62
0
 10
198.9625
 20
316.5676880832179
 30
0.0
 11
198.9625
 21
314.03231191678213
 31
0.0
  0
ARC
  8
0
 62
0
 10
198.85916666666668
 20
313.85333333333335
 30
0.0
 40
0.20666666666666664
 50
-90.0
 51
60.00000000000176
  0
ARC
  8
0
 62
0
 10
198.85916666666668
 20
313.85333333333335
 30
0.0
 40
0.20666666666666664
 50
-149.99999999999494
 51
-90.0
  0
LINE
  8
0
 62
0
 10
189.4448119167821
 20
313.75
 30
0.0
 11
198.6801880832179
 21
313.75
 31
0.0
  0
ARC
  8
0
 62
0
 10
189.26583333333332
 20
313.85333333333335
 30
0.0
 40
0.20666666666666664
 50
-90.0
 51
-30.000000000005066
  0
ARC
  8
0
 62
0
 10
189.26583333333332
 20
313.85333333333335
 30
0.0
 40
0.20666666666666664
 50
119.99999999999824
 51
-90.0
  0
LINE
  8
0
 62
0
 10
189.1625
 20
316.5676880832179
 30
0.0
 11
189.1625
 21
314.03231191678213
 31
0.0
  0
ARC
  8
0
 62
0
 10
189.26583333333332
 20
316.74666666666667
 30
0.0
 40
0.20666666666666664
 50
30.000000000005066
 51
-120.00000000000506
  0
LINE
  8
0
 62
0
 10
189.4448119167821
 20
316.85
 30
0.0
 11
198.6801880832179
 21
316.85
 31
0.0
  0
ARC
  8
0
 62
0
 10
198.85916666666668
 20
316.7466666666667
 30
0.0
 40
0.20666666666666664
 50
-59.99999999999495
 51
149.99999999999494
  0
LINE
  8
0
 62
0
 10
198.9625
 20
225.96768808321792
 30
0.0
 11
198.9625
 21
223.43231191678214
 31
0.0
  0
ARC
  8
0
 62
0
 10
198.85916666666668
 20
223.25333333333333
 30
0.0
 40
0.20666666666666664
 50
-90.0
 51
60.00000000000176
  0
ARC
  8
0
 62
0
 10
198.85916666666668
 20
223.25333333333333
 30
0.0
 40
0.20666666666666664
 50
-150.00000000000176
 51
-90.0
  0
LINE
  8
0
 62
0
 10
189.4448119167821
 20
223.15
 30
0.0
 11
198.6801880832179
 21
223.15
 31
0.0
  0
ARC
  8
0
 62
0
 10
189.26583333333332
 20
223.25333333333333
 30
0.0
 40
0.20666666666666664
 50
-90.0
 51
-29.999999999998234
  0
ARC
  8
0
 62
0
 10
189.26583333333332
 20
223.25333333333333
 30
0.0
 40
0.20666666666666664
 50
119.99999999999824
 51
-90.0
  0
LINE
  8
0
 62
0
 10
189.1625
 20
225.96768808321792
 30
0.0
 11
189.1625
 21
223.43231191678214
 31
0.0
  0
ARC
  8
0
 62
0
 10
189.26583333333332
 20
226.14666666666668
 30
0.0
 40
0.20666666666666664
 50
29.999999999998234
 51
-120.00000000000506
  0
LINE
  8
0
 62
0
 10
189.4448119167821
 20
226.25000000000003
 30
0.0
 11
198.6801880832179
 21
226.25000000000003
 31
0.0
  0
ARC
  8
0
 62
0
 10
198.85916666666668
 20
226.14666666666668
 30
0.0
 40
0.20666666666666664
 50
-59.99999999999495
 51
150.00000000000176
  0
LINE
  8
0
 62
0
 10
17.8375
 20
225.96768808321787
 30
0.0
 11
17.8375
 21
223.43231191678208
 31
0.0
  0
ARC
  8
0
 62
0
 10
17.734166666666667
 20
223.2533333333333
 30
0.0
 40
0.20666666666666664
 50
-90.0
 51
59.99999999999835
  0
ARC
  8
0
 62
0
 10
17.734166666666667
 20
223.2533333333333
 30
0.0
 40
0.20666666666666664
 50
-150.00000000000227
 51
-90.0
  0
LINE
  8
0
 62
0
 10
8.31981191678212
 20
223.14999999999995
 30
0.0
 11
17.555188083217892
 21
223.14999999999995
 31
0.0
  0
ARC
  8
0
 62
0
 10
8.140833333333333
 20
223.2533333333333
 30
0.0
 40
0.20666666666666664
 50
-90.0
 51
-29.999999999997993
  0
ARC
  8
0
 62
0
 10
8.140833333333333
 20
223.2533333333333
 30
0.0
 40
0.20666666666666664
 50
120.00000000000165
 51
-90.0
  0
LINE
  8
0
 62
0
 10
8.0375
 20
225.96768808321787
 30
0.0
 11
8.0375
 21
223.43231191678208
 31
0.0
  0
ARC
  8
0
 62
0
 10
8.140833333333333
 20
226.14666666666665
 30
0.0
 40
0.20666666666666664
 50
29.999999999997993
 51
-120.00000000000207
  0
LINE
  8
0
 62
0
 10
8.31981191678212
 20
226.24999999999997
 30
0.0
 11
17.555188083217892
 21
226.24999999999997
 31
0.0
  0
ARC
  8
0
 62
0
 10
17.734166666666667
 20
226.14666666666665
 30
0.0
 40
0.20666666666666664
 50
-59.9999999999975
 51
150.00000000000176
  0
LINE
  8
0
 62
0
 10
17.8375
 20
316.5676880832179
 30
0.0
 11
17.8375
 21
314.03231191678213
 31
0.0
  0
ARC
  8
0
 62
0
 10
17.734166666666667
 20
313.85333333333335
 30
0.0
 40
0.20666666666666664
 50
-90.0
 51
59.99999999999835
  0
ARC
  8
0
 62
0
 10
17.734166666666667
 20
313.85333333333335
 30
0.0
 40
0.20666666666666664
 50
-149.99999999999542
 51
-90.0
  0
LINE
  8
0
 62
0
 10
8.31981191678212
 20
313.75
 30
0.0
 11
17.555188083217892
 21
313.75
 31
0.0
  0
ARC
  8
0
 62
0
 10
8.140833333333333
 20
313.8533333333333
 30
0.0
 40
0.20666666666666664
 50
-90.0
 51
-30.000000000004814
  0
ARC
  8
0
 62
0
 10
8.140833333333333
 20
313.8533333333333
 30
0.0
 40
0.20666666666666664
 50
120.00000000000165
 51
-90.0
  0
LINE
  8
0
 62
0
 10
8.0375
 20
316.5676880832179
 30
0.0
 11
8.0375
 21
314.03231191678213
 31
0.0
  0
ARC
  8
0
 62
0
 10
8.140833333333333
 20
316.74666666666667
 30
0.0
 40
0.20666666666666664
 50
30.000000000004814
 51
-120.00000000000207
  0
LINE
  8
0
 62
0
 10
8.31981191678212
 20
316.85
 30
0.0
 11
17.555188083217892
 21
316.85
 31
0.0
  0
ARC
  8
0
 62
0
 10
17.734166666666667
 20
316.74666666666667
 30
0.0
 40
0.20666666666666664
 50
-59.9999999999975
 51
149.99999999999494
  0
LINE
  8
0
 62
0
 10
95.4625
 20
225.9676880832179
 30
0.0
 11
95.4625
 21
223.4323119167821
 31
0.0
  0
ARC
  8
0
 62
0
 10
95.35916666666667
 20
223.25333333333333
 30
0.0
 40
0.20666666666666664
 50
-90.0
 51
60.00000000000176
  0
ARC
  8
0
 62
0
 10
95.35916666666667
 20
223.25333333333333
 30
0.0
 40
0.20666666666666664
 50
-150.00000000000176
 51
-90.0
  0
LINE
  8
0
 62
0
 10
85.94481191678211
 20
223.14999999999998
 30
0.0
 11
95.18018808321787
 21
223.14999999999998
 31
0.0
  0
ARC
  8
0
 62
0
 10
85.76583333333333
 20
223.25333333333333
 30
0.0
 40
0.20666666666666664
 50
-90.0
 51
-29.999999999998234
  0
ARC
  8
0
 62
0
 10
85.76583333333333
 20
223.25333333333333
 30
0.0
 40
0.20666666666666664
 50
119.99999999999824
 51
-90.0
  0
LINE
  8
0
 62
0
 10
85.6625
 20
225.9676880832179
 30
0.0
 11
85.6625
 21
223.4323119167821
 31
0.0
  0
ARC
  8
0
 62
0
 10
85.76583333333333
 20
226.14666666666665
 30
0.0
 40
0.20666666666666664
 50
29.999999999998234
 51
-120.00000000000165
  0
LINE
  8
0
 62
0
 10
85.9448119167821
 20
226.25
 30
0.0
 11
95.18018808321789
 21
226.25
 31
0.0
  0
ARC
  8
0
 62
0
 10
95.35916666666667
 20
226.14666666666665
 30
0.0
 40
0.20666666666666664
 50
-59.99999999999835
 51
150.00000000000176
  0
LINE
  8
0
 62
0
 10
147.2125
 20
316.5676880832179
 30
0.0
 11
147.2125
 21
314.03231191678213
 31
0.0
  0
ARC
  8
0
 62
0
 10
147.10916666666668
 20
313.85333333333335
 30
0.0
 40
0.20666666666666664
 50
-90.0
 51
60.00000000000176
  0
ARC
  8
0
 62
0
 10
147.10916666666668
 20
313.85333333333335
 30
0.0
 40
0.20666666666666664
 50
-149.99999999999494
 51
-90.0
  0
LINE
  8
0
 62
0
 10
137.6948119167821
 20
313.75
 30
0.0
 11
146.93018808321787
 21
313.75
 31
0.0
  0
ARC
  8
0
 62
0
 10
137.51583333333332
 20
313.85333333333335
 30
0.0
 40
0.20666666666666664
 50
-90.0
 51
-30.000000000005066
  0
ARC
  8
0
 62
0
 10
137.51583333333332
 20
313.85333333333335
 30
0.0
 40
0.20666666666666664
 50
119.99999999999824
 51
-90.0
  0
LINE
  8
0
 62
0
 10
137.4125
 20
316.5676880832179
 30
0.0
 11
137.4125
 21
314.03231191678213
 31
0.0
  0
ARC
  8
0
 62
0
 10
137.51583333333332
 20
316.74666666666667
 30
0.0
 40
0.20666666666666664
 50
30.000000000005066
 51
-120.00000000000506
  0
LINE
  8
0
 62
0
 10
137.6948119167821
 20
316.85
 30
0.0
 11
146.9301880832179
 21
316.85
 31
0.0
  0
ARC
  8
0
 62
0
 10
147.10916666666668
 20
316.74666666666667
 30
0.0
 40
0.20666666666666664
 50
-60.00000000000176
 51
149.99999999999494
  0
LINE
  8
0
 62
0
 10
69.5875
 20
316.5676880832179
 30
0.0
 11
69.5875
 21
314.03231191678213
 31
0.0
  0
ARC
  8
0
 62
0
 10
69.48416666666668
 20
313.85333333333335
 30
0.0
 40
0.20666666666666664
 50
-90.0
 51
60.00000000000176
  0
ARC
  8
0
 62
0
 10
69.48416666666668
 20
313.85333333333335
 30
0.0
 40
0.20666666666666664
 50
-149.99999999999494
 51
-90.0
  0
LINE
  8
0
 62
0
 10
60.06981191678212
 20
313.75
 30
0.0
 11
69.30518808321789
 21
313.75
 31
0.0
  0
ARC
  8
0
 62
0
 10
59.89083333333333
 20
313.85333333333335
 30
0.0
 40
0.20666666666666664
 50
-90.0
 51
-30.000000000004075
  0
ARC
  8
0
 62
0
 10
59.89083333333333
 20
313.85333333333335
 30
0.0
 40
0.20666666666666664
 50
119.99999999999994
 51
-90.0
  0
LINE
  8
0
 62
0
 10
59.7875
 20
316.5676880832179
 30
0.0
 11
59.7875
 21
314.03231191678213
 31
0.0
  0
ARC
  8
0
 62
0
 10
59.89083333333333
 20
316.74666666666667
 30
0.0
 40
0.20666666666666664
 50
30.000000000005066
 51
-120.00000000000165
  0
LINE
  8
0
 62
0
 10
60.069811916782115
 20
316.85
 30
0.0
 11
69.3051880832179
 21
316.85
 31
0.0
  0
ARC
  8
0
 62
0
 10
69.48416666666668
 20
316.74666666666667
 30
0.0
 40
0.20666666666666664
 50
-59.99999999999835
 51
149.99999999999494
  0
LINE
  8
0
 62
0
 10
43.7125
 20
316.5676880832179
 30
0.0
 11
43.7125
 21
314.03231191678213
 31
0.0
  0
ARC
  8
0
 62
0
 10
43.60916666666667
 20
313.85333333333335
 30
0.0
 40
0.20666666666666664
 50
-90.0
 51
60.00000000000006
  0
ARC
  8
0
 62
0
 10
43.60916666666667
 20
313.85333333333335
 30
0.0
 40
0.20666666666666664
 50
-149.99999999999594
 51
-90.0
  0
LINE
  8
0
 62
0
 10
34.19481191678212
 20
313.75
 30
0.0
 11
43.430188083217885
 21
313.75
 31
0.0
  0
ARC
  8
0
 62
0
 10
34.01583333333333
 20
313.85333333333335
 30
0.0
 40
0.20666666666666664
 50
-90.0
 51
-30.000000000005066
  0
ARC
  8
0
 62
0
 10
34.01583333333333
 20
313.85333333333335
 30
0.0
 40
0.20666666666666664
 50
120.00000000000165
 51
-90.0
  0
LINE
  8
0
 62
0
 10
33.9125
 20
316.5676880832179
 30
0.0
 11
33.9125
 21
314.03231191678213
 31
0.0
  0
ARC
  8
0
 62
0
 10
34.01583333333333
 20
316.74666666666667
 30
0.0
 40
0.20666666666666664
 50
30.000000000005066
 51
-120.00000000000165
  0
LINE
  8
0
 62
0
 10
34.19481191678212
 20
316.85
 30
0.0
 11
43.43018808321789
 21
316.85
 31
0.0
  0
ARC
  8
0
 62
0
 10
43.60916666666667
 20
316.74666666666667
 30
0.0
 40
0.20666666666666664
 50
-59.99999999999835
 51
149.99999999999494
  0
LINE
  8
0
 62
0
 10
173.0875
 20
316.5676880832179
 30
0.0
 11
173.0875
 21
314.03231191678213
 31
0.0
  0
ARC
  8
0
 62
0
 10
172.98416666666668
 20
313.85333333333335
 30
0.0
 40
0.20666666666666664
 50
-90.0
 51
60.00000000000176
  0
ARC
  8
0
 62
0
 10
172.98416666666668
 20
313.85333333333335
 30
0.0
 40
0.20666666666666664
 50
-149.99999999999494
 51
-90.0
  0
LINE
  8
0
 62
0
 10
163.5698119167821
 20
313.75
 30
0.0
 11
172.80518808321787
 21
313.75
 31
0.0
  0
ARC
  8
0
 62
0
 10
163.39083333333332
 20
313.85333333333335
 30
0.0
 40
0.20666666666666664
 50
-90.0
 51
-30.000000000005066
  0
ARC
  8
0
 62
0
 10
163.39083333333332
 20
313.85333333333335
 30
0.0
 40
0.20666666666666664
 50
119.99999999999824
 51
-90.0
  0
LINE
  8
0
 62
0
 10
163.2875
 20
316.5676880832179
 30
0.0
 11
163.2875
 21
314.03231191678213
 31
0.0
  0
ARC
  8
0
 62
0
 10
163.39083333333332
 20
316.74666666666667
 30
0.0
 40
0.20666666666666664
 50
30.000000000005066
 51
-120.00000000000506
  0
LINE
  8
0
 62
0
 10
163.5698119167821
 20
316.85
 30
0.0
 11
172.80518808321787
 21
316.85
 31
0.0
  0
ARC
  8
0
 62
0
 10
172.98416666666668
 20
316.74666666666667
 30
0.0
 40
0.20666666666666664
 50
-59.99999999999495
 51
149.99999999999494
  0
LINE
  8
0
 62
0
 10
69.5875
 20
225.9676880832179
 30
0.0
 11
69.5875
 21
223.4323119167821
 31
0.0
  0
ARC
  8
0
 62
0
 10
69.48416666666668
 20
223.2533333333333
 30
0.0
 40
0.20666666666666664
 50
-90.0
 51
60.00000000000176
  0
ARC
  8
0
 62
0
 10
69.48416666666668
 20
223.2533333333333
 30
0.0
 40
0.20666666666666664
 50
-150.00000000000176
 51
-90.0
  0
LINE
  8
0
 62
0
 10
60.06981191678212
 20
223.14999999999998
 30
0.0
 11
69.30518808321789
 21
223.14999999999998
 31
0.0
  0
ARC
  8
0
 62
0
 10
59.89083333333333
 20
223.2533333333333
 30
0.0
 40
0.20666666666666664
 50
-90.0
 51
-29.999999999997257
  0
ARC
  8
0
 62
0
 10
59.89083333333333
 20
223.2533333333333
 30
0.0
 40
0.20666666666666664
 50
119.99999999999994
 51
-90.0
  0
LINE
  8
0
 62
0
 10
59.7875
 20
225.9676880832179
 30
0.0
 11
59.7875
 21
223.4323119167821
 31
0.0
  0
ARC
  8
0
 62
0
 10
59.89083333333333
 20
226.14666666666665
 30
0.0
 40
0.20666666666666664
 50
29.999999999998234
 51
-120.00000000000165
  0
LINE
  8
0
 62
0
 10
60.069811916782115
 20
226.25
 30
0.0
 11
69.3051880832179
 21
226.25
 31
0.0
  0
ARC
  8
0
 62
0
 10
69.48416666666668
 20
226.14666666666665
 30
0.0
 40
0.20666666666666664
 50
-59.99999999999835
 51
150.00000000000176
  0
LINE
  8
0
 62
0
 10
43.7125
 20
225.96768808321787
 30
0.0
 11
43.7125
 21
223.43231191678208
 31
0.0
  0
ARC
  8
0
 62
0
 10
43.60916666666667
 20
223.2533333333333
 30
0.0
 40
0.20666666666666664
 50
-90.0
 51
60.00000000000006
  0
ARC
  8
0
 62
0
 10
43.60916666666667
 20
223.2533333333333
 30
0.0
 40
0.20666666666666664
 50
-150.00000000000276
 51
-90.0
  0
LINE
  8
0
 62
0
 10
34.19481191678212
 20
223.14999999999995
 30
0.0
 11
43.430188083217885
 21
223.14999999999995
 31
0.0
  0
ARC
  8
0
 62
0
 10
34.01583333333333
 20
223.2533333333333
 30
0.0
 40
0.20666666666666664
 50
-90.0
 51
-29.999999999998234
  0
ARC
  8
0
 62
0
 10
34.01583333333333
 20
223.2533333333333
 30
0.0
 40
0.20666666666666664
 50
120.00000000000165
 51
-90.0
  0
LINE
  8
0
 62
0
 10
33.9125
 20
225.96768808321787
 30
0.0
 11
33.9125
 21
223.43231191678208
 31
0.0
  0
ARC
  8
0
 62
0
 10
34.01583333333333
 20
226.14666666666665
 30
0.0
 40
0.20666666666666664
 50
29.999999999998234
 51
-120.00000000000165
  0
LINE
  8
0
 62
0
 10
34.19481191678212
 20
226.24999999999997
 30
0.0
 11
43.43018808321789
 21
226.24999999999997
 31
0.0
  0
ARC
  8
0
 62
0
 10
43.60916666666667
 20
226.14666666666665
 30
0.0
 40
0.20666666666666664
 50
-59.99999999999835
 51
150.00000000000176
  0
LINE
  8
0
 62
0
 10
147.2125
 20
225.9676880832179
 30
0.0
 11
147.2125
 21
223.4323119167821
 31
0.0
  0
ARC
  8
0
 62
0
 10
147.10916666666668
 20
223.25333333333333
 30
0.0
 40
0.20666666666666664
 50
-90.0
 51
60.00000000000176
  0
ARC
  8
0
 62
0
 10
147.10916666666668
 20
223.25333333333333
 30
0.0
 40
0.20666666666666664
 50
-150.00000000000176
 51
-90.0
  0
LINE
  8
0
 62
0
 10
137.6948119167821
 20
223.14999999999998
 30
0.0
 11
146.93018808321787
 21
223.14999999999998
 31
0.0
  0
ARC
  8
0
 62
0
 10
137.51583333333332
 20
223.25333333333333
 30
0.0
 40
0.20666666666666664
 50
-90.0
 51
-29.999999999998234
  0
ARC
  8
0
 62
0
 10
137.51583333333332
 20
223.25333333333333
 30
0.0
 40
0.20666666666666664
 50
119.99999999999824
 51
-90.0
  0
LINE
  8
0
 62
0
 10
137.4125
 20
225.9676880832179
 30
0.0
 11
137.4125
 21
223.4323119167821
 31
0.0
  0
ARC
  8
0
 62
0
 10
137.51583333333332
 20
226.14666666666668
 30
0.0
 40
0.20666666666666664
 50
29.999999999998234
 51
-120.00000000000506
  0
LINE
  8
0
 62
0
 10
137.6948119167821
 20
226.25
 30
0.0
 11
146.9301880832179
 21
226.25
 31
0.0
  0
ARC
  8
0
 62
0
 10
147.10916666666668
 20
226.14666666666668
 30
0.0
 40
0.20666666666666664
 50
-60.00000000000176
 51
150.00000000000176
  0
LINE
  8
0
 62
0
 10
173.0875
 20
225.96768808321792
 30
0.0
 11
173.0875
 21
223.43231191678214
 31
0.0
  0
ARC
  8
0
 62
0
 10
172.98416666666668
 20
223.25333333333333
 30
0.0
 40
0.20666666666666664
 50
-90.0
 51
60.00000000000176
  0
ARC
  8
0
 62
0
 10
172.98416666666668
 20
223.25333333333333
 30
0.0
 40
0.20666666666666664
 50
-150.00000000000176
 51
-90.0
  0
LINE
  8
0
 62
0
 10
163.5698119167821
 20
223.15
 30
0.0
 11
172.80518808321787
 21
223.15
 31
0.0
  0
ARC
  8
0
 62
0
 10
163.39083333333332
 20
223.25333333333333
 30
0.0
 40
0.20666666666666664
 50
-90.0
 51
-29.999999999998234
  0
ARC
  8
0
 62
0
 10
163.39083333333332
 20
223.25333333333333
 30
0.0
 40
0.20666666666666664
 50
119.99999999999824
 51
-90.0
  0
LINE
  8
0
 62
0
 10
163.2875
 20
225.96768808321792
 30
0.0
 11
163.2875
 21
223.43231191678214
 31
0.0
  0
ARC
  8
0
 62
0
 10
163.39083333333332
 20
226.14666666666668
 30
0.0
 40
0.20666666666666664
 50
29.999999999998234
 51
-120.00000000000506
  0
LINE
  8
0
 62
0
 10
163.5698119167821
 20
226.25000000000003
 30
0.0
 11
172.80518808321787
 21
226.25000000000003
 31
0.0
  0
ARC
  8
0
 62
0
 10
172.98416666666668
 20
226.14666666666668
 30
0.0
 40
0.20666666666666664
 50
-59.99999999999495
 51
150.00000000000176
  0
LINE
  8
0
 62
0
 10
95.4625
 20
316.5676880832179
 30
0.0
 11
95.4625
 21
314.03231191678213
 31
0.0
  0
ARC
  8
0
 62
0
 10
95.35916666666667
 20
313.85333333333335
 30
0.0
 40
0.20666666666666664
 50
-90.0
 51
60.00000000000176
  0
ARC
  8
0
 62
0
 10
95.35916666666667
 20
313.85333333333335
 30
0.0
 40
0.20666666666666664
 50
-149.99999999999494
 51
-90.0
  0
LINE
  8
0
 62
0
 10
85.94481191678211
 20
313.75
 30
0.0
 11
95.18018808321787
 21
313.75
 31
0.0
  0
ARC
  8
0
 62
0
 10
85.76583333333333
 20
313.85333333333335
 30
0.0
 40
0.20666666666666664
 50
-90.0
 51
-30.000000000005066
  0
ARC
  8
0
 62
0
 10
85.76583333333333
 20
313.85333333333335
 30
0.0
 40
0.20666666666666664
 50
119.99999999999824
 51
-90.0
  0
LINE
  8
0
 62
0
 10
85.6625
 20
316.5676880832179
 30
0.0
 11
85.6625
 21
314.03231191678213
 31
0.0
  0
ARC
  8
0
 62
0
 10
85.76583333333333
 20
316.74666666666667
 30
0.0
 40
0.20666666666666664
 50
30.000000000005066
 51
-120.00000000000165
  0
LINE
  8
0
 62
0
 10
85.9448119167821
 20
316.85
 30
0.0
 11
95.18018808321789
 21
316.85
 31
0.0
  0
ARC
  8
0
 62
0
 10
95.35916666666667
 20
316.74666666666667
 30
0.0
 40
0.20666666666666664
 50
-59.99999999999835
 51
149.99999999999494
  0
LINE
  8
0
 62
0
 10
121.3375
 20
316.5676880832179
 30
0.0
 11
121.3375
 21
314.03231191678213
 31
0.0
  0
ARC
  8
0
 62
0
 10
121.23416666666667
 20
313.85333333333335
 30
0.0
 40
0.20666666666666664
 50
-90.0
 51
60.00000000000176
  0
ARC
  8
0
 62
0
 10
121.23416666666667
 20
313.85333333333335
 30
0.0
 40
0.20666666666666664
 50
-149.99999999999494
 51
-90.0
  0
LINE
  8
0
 62
0
 10
111.81981191678211
 20
313.75
 30
0.0
 11
121.05518808321787
 21
313.75
 31
0.0
  0
ARC
  8
0
 62
0
 10
111.64083333333333
 20
313.85333333333335
 30
0.0
 40
0.20666666666666664
 50
-90.0
 51
-30.000000000005066
  0
ARC
  8
0
 62
0
 10
111.64083333333333
 20
313.85333333333335
 30
0.0
 40
0.20666666666666664
 50
119.99999999999824
 51
-90.0
  0
LINE
  8
0
 62
0
 10
111.5375
 20
316.5676880832179
 30
0.0
 11
111.5375
 21
314.03231191678213
 31
0.0
  0
ARC
  8
0
 62
0
 10
111.64083333333333
 20
316.74666666666667
 30
0.0
 40
0.20666666666666664
 50
30.000000000005066
 51
-120.00000000000165
  0
LINE
  8
0
 62
0
 10
111.81981191678211
 20
316.85
 30
0.0
 11
121.05518808321789
 21
316.85
 31
0.0
  0
ARC
  8
0
 62
0
 10
121.23416666666667
 20
316.74666666666667
 30
0.0
 40
0.20666666666666664
 50
-59.99999999999835
 51
149.99999999999494
  0
LINE
  8
0
 62
0
 10
121.3375
 20
225.9676880832179
 30
0.0
 11
121.3375
 21
223.4323119167821
 31
0.0
  0
ARC
  8
0
 62
0
 10
121.23416666666667
 20
223.25333333333333
 30
0.0
 40
0.20666666666666664
 50
-90.0
 51
60.00000000000176
  0
ARC
  8
0
 62
0
 10
121.23416666666667
 20
223.25333333333333
 30
0.0
 40
0.20666666666666664
 50
-150.00000000000176
 51
-90.0
  0
LINE
  8
0
 62
0
 10
111.81981191678211
 20
223.14999999999998
 30
0.0
 11
121.05518808321787
 21
223.14999999999998
 31
0.0
  0
ARC
  8
0
 62
0
 10
111.64083333333333
 20
223.25333333333333
 30
0.0
 40
0.20666666666666664
 50
-90.0
 51
-29.999999999998234
  0
ARC
  8
0
 62
0
 10
111.64083333333333
 20
223.25333333333333
 30
0.0
 40
0.20666666666666664
 50
119.99999999999824
 51
-90.0
  0
LINE
  8
0
 62
0
 10
111.5375
 20
225.9676880832179
 30
0.0
 11
111.5375
 21
223.4323119167821
 31
0.0
  0
ARC
  8
0
 62
0
 10
111.64083333333333
 20
226.14666666666665
 30
0.0
 40
0.20666666666666664
 50
29.999999999998234
 51
-120.00000000000165
  0
LINE
  8
0
 62
0
 10
111.81981191678211
 20
226.25
 30
0.0
 11
121.05518808321789
 21
226.25
 31
0.0
  0
ARC
  8
0
 62
0
 10
121.23416666666667
 20
226.14666666666665
 30
0.0
 40
0.20666666666666664
 50
-59.99999999999835
 51
150.00000000000176
  0
ENDBLK
  0
BLOCK
  8
0
  2
SHAPE2DVIEW004
 70
0
 10
0.0
 20
0.0
 30
0.0
  3
SHAPE2DVIEW004
  0
LINE
  8
0
 62
0
 10
40.0
 20
440.0
 30
0.0
 11
40.0
 21
562.0
 31
0.0
  0
LINE
  8
0
 62
0
 10
0.0
 20
440.0
 30
0.0
 11
40.0
 21
440.0
 31
0.0
  0
LINE
  8
0
 62
0
 10
40.0
 20
562.0
 30
0.0
 11
0.0
 21
562.0
 31
0.0
  0
LINE
  8
0
 62
0
 10
0.0
 20
562.0
 30
0.0
 11
0.0
 21
440.0
 31
0.0
  0
CIRCLE
  8
0
 62
0
 10
30.0
 20
525.72
 30
0.0
 40
1.5
  0
CIRCLE
  8
0
 62
0
 10
31.27
 20
535.88
 30
0.0
 40
1.6
  0
LINE
  8
0
 62
0
 10
24.9
 20
547.5676880832178
 30
0.0
 11
24.9
 21
545.0323119167821
 31
0.0
  0
ARC
  8
0
 62
0
 10
24.796666666666667
 20
547.7466666666667
 30
0.0
 40
0.20666666666666664
 50
-59.999999999990465
 51
149.99999999999494
  0
ARC
  8
0
 62
0
 10
24.796666666666667
 20
544.8533333333332
 30
0.0
 40
0.20666666666666664
 50
-90.0
 51
60.00000000000794
  0
LINE
  8
0
 62
0
 10
15.382311916782115
 20
547.8499999999999
 30
0.0
 11
24.617688083217885
 21
547.8499999999999
 31
0.0
  0
ARC
  8
0
 62
0
 10
24.796666666666667
 20
544.8533333333332
 30
0.0
 40
0.20666666666666664
 50
-149.99999999999542
 51
-90.0
  0
ARC
  8
0
 62
0
 10
15.203333333333333
 20
547.7466666666667
 30
0.0
 40
0.20666666666666664
 50
30.000000000004814
 51
-119.99999999999122
  0
LINE
  8
0
 62
0
 10
15.382311916782118
 20
544.75
 30
0.0
 11
24.61768808321788
 21
544.75
 31
0.0
  0
LINE
  8
0
 62
0
 10
15.1
 20
547.5676880832178
 30
0.0
 11
15.1
 21
545.0323119167821
 31
0.0
  0
ARC
  8
0
 62
0
 10
15.203333333333333
 20
544.8533333333332
 30
0.0
 40
0.20666666666666664
 50
-90.0
 51
-30.000000000004572
  0
ARC
  8
0
 62
0
 10
15.203333333333333
 20
544.8533333333332
 30
0.0
 40
0.20666666666666664
 50
119.99999999999208
 51
-90.0
  0
CIRCLE
  8
0
 62
0
 10
30.0
 20
520.64
 30
0.0
 40
1.5
  0
CIRCLE
  8
0
 62
0
 10
30.0
 20
490.16
 30
0.0
 40
1.5
  0
CIRCLE
  8
0
 62
0
 10
30.0
 20
495.24
 30
0.0
 40
1.5
  0
CIRCLE
  8
0
 62
0
 10
30.0
 20
500.32
 30
0.0
 40
1.5
  0
CIRCLE
  8
0
 62
0
 10
30.0
 20
515.56
 30
0.0
 40
1.5
  0
CIRCLE
  8
0
 62
0
 10
30.0
 20
510.48
 30
0.0
 40
1.5
  0
CIRCLE
  8
0
 62
0
 10
30.0
 20
505.4
 30
0.0
 40
1.5
  0
CIRCLE
  8
0
 62
0
 10
30.0
 20
480.0
 30
0.0
 40
1.5
  0
CIRCLE
  8
0
 62
0
 10
30.0
 20
485.08
 30
0.0
 40
1.5
  0
LINE
  8
0
 62
0
 10
6.5176880832178865
 20
483.6
 30
0.0
 11
3.9823119167821197
 21
483.6
 31
0.0
  0
ARC
  8
0
 62
0
 10
6.696666666666666
 20
483.7033333333333
 30
0.0
 40
0.20666666666666664
 50
-149.99999999999508
 51
59.999999999999204
  0
ARC
  8
0
 62
0
 10
3.8033333333333337
 20
483.7033333333333
 30
0.0
 40
0.20666666666666664
 50
-180.0
 51
-30.000000000004572
  0
LINE
  8
0
 62
0
 10
6.8
 20
493.11768808321784
 30
0.0
 11
6.8
 21
483.8823119167821
 31
0.0
  0
ARC
  8
0
 62
0
 10
3.8033333333333337
 20
483.7033333333333
 30
0.0
 40
0.20666666666666664
 50
120.00000000000007
 51
-180.0
  0
ARC
  8
0
 62
0
 10
6.696666666666666
 20
493.2966666666667
 30
0.0
 40
0.20666666666666664
 50
-59.999999999999204
 51
149.99999999999568
  0
LINE
  8
0
 62
0
 10
3.7
 20
493.11768808321784
 30
0.0
 11
3.7
 21
483.8823119167821
 31
0.0
  0
LINE
  8
0
 62
0
 10
6.517688083217878
 20
493.4
 30
0.0
 11
3.982311916782119
 21
493.4
 31
0.0
  0
ARC
  8
0
 62
0
 10
3.8033333333333337
 20
493.2966666666667
 30
0.0
 40
0.20666666666666664
 50
-180.0
 51
-119.99999999999994
  0
ARC
  8
0
 62
0
 10
3.8033333333333337
 20
493.2966666666667
 30
0.0
 40
0.20666666666666664
 50
30.000000000004622
 51
-180.0
  0
LINE
  8
0
 62
0
 10
6.517688083217877
 20
508.6
 30
0.0
 11
3.9823119167821197
 21
508.6
 31
0.0
  0
ARC
  8
0
 62
0
 10
6.696666666666666
 20
508.7033333333333
 30
0.0
 40
0.20666666666666664
 50
-149.9999999999958
 51
59.99999999999941
  0
ARC
  8
0
 62
0
 10
3.8033333333333337
 20
508.7033333333333
 30
0.0
 40
0.20666666666666664
 50
-180.0
 51
-30.000000000004444
  0
LINE
  8
0
 62
0
 10
6.8
 20
518.1176880832179
 30
0.0
 11
6.8
 21
508.8823119167821
 31
0.0
  0
ARC
  8
0
 62
0
 10
3.8033333333333337
 20
508.7033333333333
 30
0.0
 40
0.20666666666666664
 50
120.00000000000007
 51
-180.0
  0
ARC
  8
0
 62
0
 10
6.696666666666666
 20
518.2966666666666
 30
0.0
 40
0.20666666666666664
 50
-60.000000000007084
 51
149.99999999999508
  0
LINE
  8
0
 62
0
 10
3.7
 20
518.1176880832179
 30
0.0
 11
3.7
 21
508.8823119167821
 31
0.0
  0
LINE
  8
0
 62
0
 10
6.5176880832178865
 20
518.4
 30
0.0
 11
3.9823119167821197
 21
518.4
 31
0.0
  0
ARC
  8
0
 62
0
 10
3.8033333333333337
 20
518.2966666666666
 30
0.0
 40
0.20666666666666664
 50
-180.0
 51
-119.99999999999208
  0
ARC
  8
0
 62
0
 10
3.8033333333333337
 20
518.2966666666666
 30
0.0
 40
0.20666666666666664
 50
30.000000000004572
 51
-180.0
  0
LINE
  8
0
 62
0
 10
6.517688083217882
 20
533.6
 30
0.0
 11
3.982311916782124
 21
533.6
 31
0.0
  0
ARC
  8
0
 62
0
 10
6.696666666666666
 20
533.7033333333334
 30
0.0
 40
0.20666666666666664
 50
-149.99999999999542
 51
60.000000000007084
  0
ARC
  8
0
 62
0
 10
3.8033333333333337
 20
533.7033333333334
 30
0.0
 40
0.20666666666666664
 50
-180.0
 51
-30.00000000000396
  0
LINE
  8
0
 62
0
 10
6.8
 20
543.1176880832179
 30
0.0
 11
6.8
 21
533.8823119167821
 31
0.0
  0
ARC
  8
0
 62
0
 10
3.8033333333333337
 20
533.7033333333334
 30
0.0
 40
0.20666666666666664
 50
119.99999999999174
 51
-180.0
  0
ARC
  8
0
 62
0
 10
6.696666666666666
 20
543.2966666666666
 30
0.0
 40
0.20666666666666664
 50
-60.000000000007084
 51
149.99999999999483
  0
LINE
  8
0
 62
0
 10
3.7
 20
543.1176880832179
 30
0.0
 11
3.7
 21
533.8823119167821
 31
0.0
  0
LINE
  8
0
 62
0
 10
6.517688083217887
 20
543.4
 30
0.0
 11
3.9823119167821193
 21
543.4
 31
0.0
  0
ARC
  8
0
 62
0
 10
3.8033333333333337
 20
543.2966666666666
 30
0.0
 40
0.20666666666666664
 50
-180.0
 51
-119.99999999999174
  0
ARC
  8
0
 62
0
 10
3.8033333333333337
 20
543.2966666666666
 30
0.0
 40
0.20666666666666664
 50
30.000000000004572
 51
-180.0
  0
CIRCLE
  8
0
 62
0
 10
31.27
 20
469.84
 30
0.0
 40
1.6
  0
LINE
  8
0
 62
0
 10
6.517688083217882
 20
458.6
 30
0.0
 11
3.982311916782124
 21
458.6
 31
0.0
  0
ARC
  8
0
 62
0
 10
6.696666666666666
 20
458.7033333333333
 30
0.0
 40
0.20666666666666664
 50
-149.99999999999542
 51
59.999999999999204
  0
ARC
  8
0
 62
0
 10
3.8033333333333337
 20
458.7033333333333
 30
0.0
 40
0.20666666666666664
 50
-180.0
 51
-29.999999999990308
  0
LINE
  8
0
 62
0
 10
6.8
 20
468.11768808321784
 30
0.0
 11
6.8
 21
458.8823119167821
 31
0.0
  0
ARC
  8
0
 62
0
 10
3.8033333333333337
 20
458.7033333333333
 30
0.0
 40
0.20666666666666664
 50
119.99999999999963
 51
-180.0
  0
ARC
  8
0
 62
0
 10
6.696666666666666
 20
468.2966666666667
 30
0.0
 40
0.20666666666666664
 50
-59.999999999999204
 51
149.99999999999483
  0
LINE
  8
0
 62
0
 10
3.7
 20
468.11768808321784
 30
0.0
 11
3.7
 21
458.8823119167821
 31
0.0
  0
LINE
  8
0
 62
0
 10
6.517688083217887
 20
468.4
 30
0.0
 11
3.9823119167821193
 21
468.4
 31
0.0
  0
ARC
  8
0
 62
0
 10
3.8033333333333337
 20
468.2966666666667
 30
0.0
 40
0.20666666666666664
 50
-180.0
 51
-119.99999999999963
  0
ARC
  8
0
 62
0
 10
3.8033333333333337
 20
468.2966666666667
 30
0.0
 40
0.20666666666666664
 50
30.000000000004572
 51
-180.0
  0
CIRCLE
  8
0
 62
0
 10
20.0
 20
445.0
 30
0.0
 40
1.6
  0
LINE
  8
0
 62
0
 10
24.9
 20
456.96768808321787
 30
0.0
 11
24.9
 21
454.4323119167821
 31
0.0
  0
ARC
  8
0
 62
0
 10
24.796666666666667
 20
457.14666666666665
 30
0.0
 40
0.20666666666666664
 50
-59.99999999999835
 51
149.99999999999494
  0
ARC
  8
0
 62
0
 10
24.796666666666667
 20
454.25333333333333
 30
0.0
 40
0.20666666666666664
 50
-90.0
 51
60.00000000000006
  0
LINE
  8
0
 62
0
 10
15.382311916782115
 20
457.25
 30
0.0
 11
24.617688083217885
 21
457.25
 31
0.0
  0
ARC
  8
0
 62
0
 10
24.796666666666667
 20
454.25333333333333
 30
0.0
 40
0.20666666666666664
 50
-149.99999999999542
 51
-90.0
  0
ARC
  8
0
 62
0
 10
15.203333333333333
 20
457.14666666666665
 30
0.0
 40
0.20666666666666664
 50
30.000000000004814
 51
-119.9999999999991
  0
LINE
  8
0
 62
0
 10
15.382311916782118
 20
454.15
 30
0.0
 11
24.61768808321788
 21
454.15
 31
0.0
  0
LINE
  8
0
 62
0
 10
15.1
 20
456.96768808321787
 30
0.0
 11
15.1
 21
454.4323119167821
 31
0.0
  0
ARC
  8
0
 62
0
 10
15.203333333333333
 20
454.25333333333333
 30
0.0
 40
0.20666666666666664
 50
-90.0
 51
-30.000000000004572
  0
ARC
  8
0
 62
0
 10
15.203333333333333
 20
454.25333333333333
 30
0.0
 40
0.20666666666666664
 50
119.99999999999994
 51
-90.0
  0
CIRCLE
  8
0
 62
0
 10
20.0
 20
557.0
 30
0.0
 40
1.6
  0
ENDBLK
  0
ENDSEC
  0
SECTION
  2
ENTITIES
  0
INSERT
  2
SHAPE2DVIEW
  8
0
 62
0
 10
0.0
 20
0.0
 30
0.0
  0
INSERT
  2
SHAPE2DVIEW001
  8
0
 62
0
 10
0.0
 20
0.0
 30
0.0
  0
INSERT
  2
SHAPE2DVIEW003
  8
0
 62
0
 10
0.0
 20
0.0
 30
0.0
  0
INSERT
  2
SHAPE2DVIEW002
  8
0
 62
0
 10
0.0
 20
0.0
 30
0.0
  0
INSERT
  2
SHAPE2DVIEW004
  8
0
 62
0
 10
0.0
 20
0.0
 30
0.0
  0
ENDSEC
  0
EOF
